Skip to content

Instantly share code, notes, and snippets.

@andrewcmyk
Created December 11, 2018 01:00
Show Gist options
  • Star 0 You must be signed in to star a gist
  • Fork 0 You must be signed in to fork a gist
  • Save andrewcmyk/89513384e9b2601161050ced7d1d07f3 to your computer and use it in GitHub Desktop.
Save andrewcmyk/89513384e9b2601161050ced7d1d07f3 to your computer and use it in GitHub Desktop.
Artist: Macseal
Track: Next to You
mail@andrewle.com
Tuning: C# G# D# G# C D#
Verse
(didn't put the strumming pattern here, you'll have to figure it out on your own)
D# |-------------------------------|
C |--0---0------------------------|
G# |--0---0------------4-----------|
D# |--0---0---5---7----2-----------|
G# |--5---7---4---5----0-----------|
C# |----------4---5----0-----------|
Noodley bits
D# |------------------------------------------------------------------------|
C |------------------------8p0---7/5-3p0--------------------------8p0---7--|
G# |------7p0-------------------0----------------7p0-------------------0----|
D# |--0--------0h7/9p0-----------------------0--------0h7/9p0---------------|
G# |--0-----------------5--------------------0-----------------5------------|
C# |------------------------------------------------------------------------|
D# |---------------------------------------------------------------------------|
C |------------------------8p0---7/5-3p0--------------------------------------|
G# |------7p0-------------------0----------------7p0-----------12--12--12--12--|
D# |--0--------0h7/9p0--------------------------------0h7/9p0--12--12--12--12--|
G# |--0-----------------5------------------------------------------------------|
C# |-----------------------------------------9-----------------12--12--12--12--|
Verse 2
Chorus
D# |-------------|
C |-------------|
G# |-------------|
D# |--9-----12---|
G# |--9-----12---|
C# |--9-----12---|
D# |--0--------|
C |--0--------|
G# |--0--------|
D# |--5--------|
G# |--5--------|
C# |-----------|
Noodley bits
D# |------------------------------------------------------------------------|
C |------------------------8p0---7/5-3p0--------------------------8p0---10-|
G# |------7p0-------------------0----------------7p0-------------------0----|
D# |--0--------0h7/9p0-----------------------0--------0h7/9p0---------------|
G# |--0-----------------5--------------------0-----------------5------------|
C# |------------------------------------------------------------------------|
D# |---------------------------------------------------------------------------|
C |------------------------8p0---7/5-3p0--------------------------------------|
G# |------7p0-------------------0----------------7p0-----------12--12--12--12--|
D# |--0--------0h7/9p0--------------------------------0h7/9p0--12--12--12--12--|
G# |--0-----------------5------------------------------------------------------|
C# |-----------------------------------------9-----------------12--12--12--12--|
D# |--------------------------------------------------------------------------------|
C |------------------------8p0---7/5-3p0----------------------8--7--8--7---10--12--|
G# |------7p0-------------------0----------------7p0--------------------------------|
D# |--0--------0h7/9p0-----------------------0--------0h7/9p0-----------------------|
G# |--0-----------------5--------------------0-----------------5--5--5--5----7---9--|
C# |--------------------------------------------------------------------------------|
D# |-----------------------------------------------------------0--0--0--0--|
C |------------------------8p0---7/5-3p0----------------------0--0--0--0--|
G# |------7p0-------------------0----------------7p0-----------0--0--0--0--|
D# |--0--------0h7/9p0--------------------------------0h7/9p0--5--5--5--5--|
G# |--0-----------------5--------------------------------------5--5--5--5--|
C# |-----------------------------------------9-----------------------------|
Bridge
D# |--0------------0--|
C |--0------------0--|
G# |--0------------0--|
D# |--5------------2--|
G# |--5------------2--|
C# |------------------|
"I waited for nothing"
D# |-------------------------|
C |-------------------------|
G# |-------------------------|
D# |--7----------------5-----|
G# |--5----------------4-----|
C# |--5----------------4-----|
D# |--0--------|
C |--0--------|
G# |--4--------|
D# |--2--------|
G# |--0--------|
C# |--0--------|
"It's hidden in plain sight"
D# |--0--------|
C |--0--------|
G# |--0--------|
D# |--2--------|
G# |--2--------|
C# |-----------|
Chorus
D# |-------------|
C |-------------|
G# |-------------|
D# |--9-----12---|
G# |--9-----12---|
C# |--9-----12---|
Outro
"And all your friends"
D# |--------------|
C |--------------|
G# |-----------4--|
D# |--5--4--9--2--|
G# |--4--2--7--0--|
C# |--4--2--7--0--|
"said, said, said"
D# |----------------------0--|
C |----------------------0--|
G# |--4--------4----------4--|
D# |--5--------5----------2--|
G# |--5--------6----------0--|
C# |----------------------0--|
Sign up for free to join this conversation on GitHub. Already have an account? Sign in to comment