Skip to content

Instantly share code, notes, and snippets.

Embed
What would you like to do?
Весна
A
Горе выпил до дна
A
Завтра будет война
Dm
Отпевая весну
A
Сын ушёл на войну
Gm
Ночь над нами как чай
Dm A#
Чайкой в небе печаль
A
Ты не отвечай
Звёзды с тысячью жал
Цепко в лапах держал
Смерть над полем кружит
Сын мой рядом лежит
Ночь над ним как река
Чайкой в небе тоска
Подожди пока
Gm
Вдруг музыка гремит
Dm
Как сабля о гранит
A#
Все открывают дверь
A
И мы въезжаем в Тверь
Не в Тверь а просто в зало
Наполненное ёлкой
Все прячут злобы жало
Один летает пчёлкой
Другая мотыльком
Над ёлки стебельком
А третья камильком
Четвёртое мелком
А пятый лезет на свечу
Кричит и я и я рычу
Кричит и я рычу
Dm*
Ай-на на-на-на най
Скоро будет весна
X1
Ай-на на-на-на най
X2
Вот и стала весна
A: x-0-2-2-2-x
Dm: 1-0-0-2-3-x
Gm: 3-x-0-3-3-x
A#: x-1-x-3-3-x
Dm*: 10-x-x-10-x-x
X1: 8-x-x-9-x-x
X2: 6-x-x-7-x-x
табы
A
H-|-2-2-----------|-
G-|-2-2-2-3-2---2-|-
D-|-2-2-------3-2-|-
A-|-0-0---------0-|-
Dm
H-|-3-3---------|-
G-|-2-2-2-3-2---|-
D-|-0-0-------3-|-
A-|-0-0---------|-
E-|-1-1---------|-
Gm
H-|-3-3---------|-
G-|-3-3-3-5-3-0-|-
D-|-0-0-0-0-0-0-|-
A-|-x-x---------|-
E-|-3-3---------|-
A#
H-|---3-------3-------------|-
G-|---3-3-2-0-3-3-3-3-2-0---|-
D-|-----------------------3-|-
A-|-1---------1-------------|-
A
H-|---2--------------------|-
G-|---3p2-2------2-3-2-----|-
D-|---2---3p2--2-------3-2-|-
A-|-0-------0------------0-|-
Потом проигрыш
Gm
H-|-3---------3-----------|-
G-|-3-3/5-3-0-3-3-5-3-0-3-|-
D-|-0-0-0-0-0-0-0-0-0-0-0-|-
A-|-x---------x-----------|-
E-|-3---------3-----------|-
Dm
H-|-3-3/5-3---3---------|-
G-|-2-----2---2-2-3-2---|-
D-|-0-0-0-0-0-0-0-0-0-3-|-
A-|-0---------0---------|-
E-|-1---------1---------|-
A#
H-|---3-------3-------------|-
G-|---3-3-2-0-3-3-3-3-2-0---|-
D-|-----------------------3-|-
A-|-1---------1-------------|-
A
H-|---2--------------------|-
G-|---3p2-2----------------|-
D-|---2---3p2--2-2-3-2-----|-
A-|-0-------0----------4-0-|-
после 2го куплета другой проигрыш
Gm
G-|-3-3/5-3-0-3-3-5-3-0-3-|-
D-|-0-0-0-0-0-0-0-0-0-0-0-|-
A-|-x---------x-----------|-
E-|-3---------3-----------|-
D
G-|-2-2-3-2-0-2-2-3-2---2-|-
D-|-0-0-0-0-0-0-0-0-0-3-2-|-
A-|-x---------x-----------|-
E-|-2---------2---------2-|-
A
G-|-5-5-7-5-4-5-5-7-5-4-5-|-
D-|-0-0-0-0-0-0-0-0-0-0-0-|-
A-|-x---------x-----------|-
E-|-5---------5-----------|-
A
H-|---2--------------------|-
G-|---3p2-2----------------|-
D-|---2---3p2--2-2-3-2-----|-
A-|-0-------0----------4-0-|-
Sign up for free to join this conversation on GitHub. Already have an account? Sign in to comment
You can’t perform that action at this time.